A Major Arpeggio Guitar Tabs

A Major Arpeggio Pattern 1

e|--------------0--------------------|
B|-----------2-----2-----------------|
G|--------2-----------2--------------|
D|-----2-----------------2-----------|
A|--0-----------------------0-----0--|
E|-----------------------------0-----|
						

A Major Arpeggio Pattern 2

e|--------------------5--------------------|
B|--------------2--5-----5--2--------------|
G|-----------2-----------------2-----------|
D|--------2-----------------------2--------|
A|-----4-----------------------------4-----|
E|--5-----------------------------------5--|
						

A Major Arpeggio Pattern 3

e|--------------------5--------------------|
B|-----------------5-----5-----------------|
G|--------------6-----------6--------------|
D|-----------7-----------------7-----------|
A|-----4--7-----------------------7--4-----|
E|--5-----------------------------------5--|
						

A Major Arpeggio Pattern 4

e|----------------9----------------------------|
B|------------10-----10------------------------|
G|---------9-------------9---------------------|
D|--7--11-------------------11--7-----------7--|
A|---------------------------------7-----7-----|
E|------------------------------------9--------|
						

A Major Arpeggio Pattern 5

e|-----------------9--12--9----------------------------|
B|-------------10------------10------------------------|
G|----------9--------------------9---------------------|
D|------11--------------------------11-----------------|
A|--12----------------------------------12---------12--|
E|------------------------------------------12--9------|