G Major Scale in Open G Tuning

The G Major Scale in Open G tuning for guitar.

The notes used in the G major scale are: G (1st or root), A (2nd), B (3rd), C (4th), D (5th), E (6th), and F# (7th).

G Major Scale Guitar Tabs

D|-----------------------------------------------|
B|-----------------------------------------------|
G|-----------------------------------------------|
D|--------------0--2--4--5--4--2--0--------------|
G|--0--2--4--5-----------------------5--4--2--0--|
D|-----------------------------------------------|
D|--------------------4--5--4--------------------|
B|--------------3--5-----------5--3--------------|
G|--0--2--4--5-----------------------5--4--2--0--|
D|-----------------------------------------------|
G|-----------------------------------------------|
D|-----------------------------------------------|
D|--------------------4--5--4--------------------|
B|--------------3--5-----------5--3--------------|
G|-----2--4--5-----------------------5--4--2-----|
D|--5-----------------------------------------5--|
G|-----------------------------------------------|
D|-----------------------------------------------|