Error processing SSI file

F Major Scale in Open G Tuning

The F Major Scale in Open G tuning for guitar.

The notes used in the F major scale are: F (1st or root), G (2nd), A (3rd), Bb (4th), C (5th), D (6th), and E (7th).

F Major Scale Guitar Tabs

D|-----------------------------------------------|
B|-----------------------------------------------|
G|-----------------------------------------------|
D|-----------------0--2--3--2--0-----------------|
G|--------2--3--5-----------------5--3--2--------|
D|--3--5-----------------------------------5--3--|
D|-----------------------------------------------|
B|-----------------------------------------------|
G|-----------------------------------------------|
D|-----------------0--2--3--2--0-----------------|
G|-----0--2--3--5-----------------5--3--2--0-----|
D|--3-----------------------------------------3--|
D|--------------------2--3--2--------------------|
B|--------------1--3-----------3--1--------------|
G|-----0--2--3-----------------------3--2--0-----|
D|--3-----------------------------------------3--|
G|-----------------------------------------------|
D|-----------------------------------------------|
D|-----------------------------------------------|
B|--------------------5--6--5--------------------|
G|-----------3--5--7-----------7--5--3-----------|
D|--3--5--7-----------------------------7--5--3--|
G|-----------------------------------------------|
D|-----------------------------------------------|