E Major Scale in Open G Tuning

The E Major Scale in Open G tuning for guitar.

The notes used in the E major scale are: E (1st or root), F# (2nd), G# (3rd), A (4th), B (5th), C# (6th), and D# (7th).

E Major Scale Guitar Tabs

D|-----------------------------------------------|
B|-----------------------------------------------|
G|-----------------------------------------------|
D|--------------------1--2--1--------------------|
G|--------1--2--4--6-----------6--4--2--1--------|
D|--2--4-----------------------------------4--2--|
D|--------------------1--2--1--------------------|
B|--------------0--2-----------2--0--------------|
G|--------1--2-----------------------2--1--------|
D|--2--4-----------------------------------4--2--|
G|-----------------------------------------------|
D|-----------------------------------------------|
D|-----------------------------------------|
B|-----------------2--4--5-----------------|
G|-----------2--4-----------4--2-----------|
D|--2--4--6-----------------------6--4--2--|
G|-----------------------------------------|
D|-----------------------------------------|