D Major Scale in Open G Tuning

The D Major Scale in Open G tuning for guitar.

The notes used in the D major scale are: D (1st or root), E (2nd), F# (3rd), G (4th), A (5th), B (6th), and C# (7th).

D Major Scale Guitar Tabs

D|-----------------------------------------------|
B|-----------------0--2--3--2--0-----------------|
G|-----------0--2-----------------2--0-----------|
D|--0--2--4-----------------------------4--2--0--|
G|-----------------------------------------------|
D|-----------------------------------------------|
D|------------------------------------------------------|
B|------------------------------------------------------|
G|------------------------------------------------------|
D|----------------7--9--11--12--11--9--7----------------|
G|--7--9--11--12--------------------------12--11--9--7--|
D|------------------------------------------------------|
D|-------------------------11--12--11-------------------------|
B|-----------------10--12--------------12--10-----------------|
G|------9--11--12------------------------------12--11--9------|
D|--12----------------------------------------------------12--|
G|------------------------------------------------------------|
D|------------------------------------------------------------|