C Major Scale in Open G Tuning

The C Major Scale in Open G tuning for guitar.

The notes used in the C major scale are: C (1st or root), D (2nd), E (3rd), F (4th), G (5th), A (6th), and B (7th).

C Major Scale Guitar Tabs

D|-----------------------------------------------|
B|-----------------------------------------------|
G|--------------0--2--4--5--4--2--0--------------|
D|-----0--2--3-----------------------3--2--0-----|
G|--5-----------------------------------------5--|
D|-----------------------------------------------|
D|--------------------------------------------------|
B|--------------------------------------------------|
G|--------------------------------------------------|
D|---------------5--7--9--10--9--7--5---------------|
G|--5--7--9--10------------------------10--9--7--5--|
D|--------------------------------------------------|
D|-----------------------9--10--9-----------------------|
B|----------------8--10------------10--8----------------|
G|------7--9--10--------------------------10--9--7------|
D|--10----------------------------------------------10--|
G|------------------------------------------------------|
D|------------------------------------------------------|