B Major Scale in Open G Tuning

The B Major Scale in Open G tuning for guitar.

The notes used in the B major scale are: B (1st or root), C# (2nd), D# (3rd), E (4th), F# (5th), G# (6th), and A# (7th).

B Major Scale Guitar Tabs

D|-----------------------------------------------|
B|-----------------------------------------------|
G|-----------------------------------------------|
D|--------------4--6--8--9--8--6--4--------------|
G|--4--6--8--9-----------------------9--8--6--4--|
D|-----------------------------------------------|
D|--------------------8--9--8--------------------|
B|--------------7--9-----------9--7--------------|
G|-----6--8--9-----------------------9--8--5-----|
D|--9-----------------------------------------9--|
G|-----------------------------------------------|
D|-----------------------------------------------|