Open G Tuning - Minor Chords

Minor Guitar Chords and Triads for Open G Tuning - DGDGBD

Open G - minor Triads

Minor Triad Form in Open G



Open G - minor Triads tab

    Am    Bm    Cm    Dm    Em    Fm     Gm   
D|--2-----4-----5-----7-----9-----10-----12--|
B|--1-----3-----4-----6-----8-----9------11--|
G|--2-----4-----5-----7-----9-----10-----12--|
D|--X-----X-----X-----X-----X-----X------X---|
G|--X-----X-----X-----X-----X-----X------X---|
D|--X-----X-----X-----X-----X-----X------X---|

Open G - minor Barre Chords

Minor Barre Chord Form in Open G


Since the root note is on the 5th string, playing the top string (lowest D) is optional.


Open G - minor Chords tab

    Am    Bm    Cm    Dm    Em    Fm     Gm   
D|--2-----4-----5-----7-----9-----10-----12--|
B|--1-----3-----4-----6-----8-----9------11--|
G|--2-----4-----5-----7-----9-----10-----12--|
D|--2-----4-----5-----7-----9-----10-----12--|
G|--2-----4-----5-----7-----9-----10-----12--|
D|--2-----4-----5-----7-----9-----10-----12--|