Open G Tuning - Guitar Chords

Strum all the strings open to play the G major chord. Barre all the strings down at the same fret to play major chords up and down the fretboard of the guitar in open G tuning.

Open G - Major Chords tab

    G  A  B  C  D  E  F    
D|--0--2--4--5--7--9--10--|
B|--0--2--4--5--7--9--10--|
G|--0--2--4--5--7--9--10--|
D|--0--2--4--5--7--9--10--|
G|--0--2--4--5--7--9--10--|
D|--0--2--4--5--7--9--10--|

More Major Chord Forms in Open G Tuning

Open G - Minor Chords tab

To play minor chords in open G, play the flat third note of the chord (B).

     Am  Bm  Cm  Dm  Em  Fm   Gm    
D|---2---4---5---7---9---10---12---|
B|---1---3---4---6---8---9----11---|
G|---2---4---5---7---9---10---12---|
D|---2---4---5---7---9---10---12---|
G|---2---4---5---7---9---10---12---|
D|---2---4---5---7---9---10---12---|

More Minor Chord Forms in Open G Tuning